Cara Termudah Nyetem Gitar Untuk Pemula - Belajar Tuning Guitar

CARA TERMUDAH NYETEAM GITAR UNTUK PEMULA
BELAJAR TUNING GUITAR


Nyetem giter merupakan langkah awal buat sobat yang ingin mahir main gitar karena jika sobat sudah bisa nyetem gitar secara manual tanpa bantuan alat berarti sobat sudah ounya feeling yang bagus tentang nada dan nantinya akan sangat bermanfaat untuk permainan gitar sobat kedepanya.


Nyetem Gitar sebenarnya ada banyak cara yang bisa dilakukan mulai dari menggunakan Effek digital yang sudah tersedia fitur tuning, menggunakan tunner dan lain-lain, namun kali ini Kordter.net hanya ingin membahas cara nyetem / nyetel gitar secara manual saja karena selain membantu sobat dalam menghafal nada nyetem gitar juga dapat meningkatkan feel dalam permainan gitar sobat dan tentunya sobat pasti bangga kalo sudah bisa nyetem gitar sendiri.




[caption id="" align="aligncenter" width="397"]stem gitar, nyetel gitar, tuning gitar, Cara Termudah Nyetem Gitar Untuk Pemula[/caption]

Lagian nyetem gitar secara manual itu mudah dan gak ribet yang dipake cuman feeling, coba kalo pake efek kan ribet harus colok sana-colok sini iya kalo listriknya nggak mati hehee. Ok dari pada kebanyakan basa-basi langsung aja yuk kita mulai belajar nyetem gitarnya.



CARA NYETEM GITAR SENDIRI SECARA MANUAL



  1. Langkah pertama yang harus sobat lakukan adalah atur terlebih dahulu senar paling atas yitu senar "E" sesuai kebutuhan sobat, atau jika sobat ingin setemanya sama dengan steman standar sobat bisa menyamakanya dengan mp3 atau menyamakan dengan lagu yang sudah sobat kuasai. Samakan senar paling atas sambil mendengarkan lagu

  2. Jika sudah langkah selanjutnya adalah mengatur senar bawahnya :

    - Tekan senar 6 (paling atas) atau senar "E" pada fret ke 5 dan samakan bunyinya dengan senar dibawahnya yaitu senar 5 pada fret   0 atau los ( dilepas, tanpa ditekan ) smakan hinggabunyinya sama. #Perhatikan tab

    E |---|---|---|---|-5-|---|---|---|---|---|---|-|--|-----------------------------------------------
    A |-0-|---|---|---|---|---|---|---|---|---|---|-|--|-----------------------------------------------

    - Tekan Senar 5 atau senar "A" pada fret 5 dan samakan dengan senar 4 pada fret 0 atau tanpa ditekan ( los ) sama seperti contoh di    atas.  #Perhatikan tab

    A |---|---|---|---|-5-|---|---|---|---|---|---|-|--|-----------------------------------------------
    D|-0-|---|---|---|---|---|---|---|---|---|---|-|--|-----------------------------------------------

    - Tekan senar 4 atau senar "D" fret pada 5 dan samakan dengan senar 3 pada fret 0 atau tanpa ditekan ( los ) sama seperti contoh di   atas.  #Perhatikan tab

    D |---|---|---|---|--5-|---|---|---|---|---|---|-|--|-----------------------------------------------
    G |-0--|---|---|---|---|---|---|---|---|---|---|-|--|-----------------------------------------------

    -Tekan senar 3 atau senar "G" pada fret 4 dan samakan dengan senar 3 pada fret 0 atau tanpa ditekan ( los ) hampir sama seperti contoh di   atas bedanya adalah fret bergeser 1 kolol kedalam / naik.  #Perhatikan tab

    G |---|---|---|---|--5-|---|---|---|---|---|---|-|--|-----------------------------------------------
    B |-0--|---|---|---|---|---|---|---|---|---|---|-|--|-----------------------------------------------

    - Tekan senar 2 atau senar "B" pada fret 5 dan samakan dengan senar 1 pada freet 0 atau tanpa ditekan ( los ) sama seperti contoh    di atas.  #Perhatikan tab

    B |---|---|---|---|--5-|---|---|---|---|---|---|-|--|-----------------------------------------------
    E |-0--|---|---|---|---|---|---|---|---|---|---|-|--|-----------------------------------------------


Tab diatas hanyalah contoh untuk mempermudah sobat dalam mempraktikan cara menyetem gitar, melainkan bukan penulisan tab secara umum. Jika sobat tertarik untuk mempelajari tab gitar silahkan baca : Cara membaca Tab Gitar Melody 

KESIMPULAN CARA NYETEM GITAR MANUAL


Pada intinya jika sobat masih bingung dengan tab ataupun penjelasan saya diatas adalah tinggal sobat tekan dan buyikan senar atas pada kolom / fret nomer 5, khusus untuk senar 3 adalah tekan pada kolom 4 dan kemudian samakan bunyinya atau tinggi rendahnya nada dengan senar di bawahnya dan lakukan cara yang sama pada senar di bawahnya dengan catatan untuk senar nomer 3 penekanan senar terletak pada fret ke 4 .

baca yang lain :

Nah demikian sharng saya kali ini tentang cara nyetem gitar sendiri secara manual untuk selanjutnya silahkan sobat eksplore sendiri atau jika sobat masih merasa kebingungan atau ingin bertanya silahkan tanyakan di kolom komentar. Sekian artikel saya kali ini semoga dapat membawa manfaat, Salamm..

 

" Cara Termudah Nyetem Gitar Untuk Pemula "